0
SECTION
2
HEADER
9
$ACADVER
1
AC1006
9
$INSBASE
10
0.0
20
0.0
30
0.0
9
$INSUNITS
70
4
9
$EXTMIN
10
-145.000
20
-320.000
9
$EXTMAX
10
2709.999
20
609.748
0
ENDSEC
0
SECTION
2
TABLES
0
TABLE
2
LTYPE
70
1
0
LTYPE
2
CONTINUOUS
70
64
3
Solid line
72
65
73
0
40
0.000000
0
ENDTAB
0
TABLE
2
LAYER
70
9
0
LAYER
2
CONTOUR
70
64
62
7
6
CONTINUOUS
0
LAYER
2
CUT_STEPTEXT
70
64
62
7
6
CONTINUOUS
0
LAYER
2
CUT_STEP
70
64
62
7
6
CONTINUOUS
0
LAYER
2
CUT_RISER
70
64
62
7
6
CONTINUOUS
0
LAYER
2
DRILLINGSSIDE
70
64
62
7
6
CONTINUOUS
0
LAYER
2
EXTRASTRINGTENONLINES
70
64
62
7
6
CONTINUOUS
0
LAYER
2
DIMLINES
70
64
62
7
6
CONTINUOUS
0
LAYER
2
DIMLINESTEXT
70
64
62
7
6
CONTINUOUS
0
ENDTAB
0
TABLE
2
STYLE
70
0
0
ENDTAB
0
ENDSEC
0
SECTION
2
BLOCKS
0
ENDSEC
0
SECTION
2
ENTITIES
0
POLYLINE
6
0
8
CONTOUR
62
0
10
0
20
0
30
0.000
66
1
0
VERTEX
8
CONTOUR
6
0
10
2589.999
20
0.000
30
0
42
0.062
0
VERTEX
8
CONTOUR
6
0
10
1718.054
20
107.803
30
0
0
VERTEX
8
CONTOUR
6
0
10
200.467
20
107.803
30
0
0
VERTEX
8
CONTOUR
6
0
10
194.431
20
115.775
30
0
0
VERTEX
8
CONTOUR
6
0
10
181.652
20
107.803
30
0
0
VERTEX
8
CONTOUR
6
0
10
0.000
20
347.721
30
0
0
VERTEX
8
CONTOUR
6
0
10
11.959
20
356.776
30
0
0
VERTEX
8
CONTOUR
6
0
10
5.922
20
364.748
30
0
0
VERTEX
8
CONTOUR
6
0
10
1611.539
20
364.748
30
0
42
-0.043
0
VERTEX
8
CONTOUR
6
0
10
2363.400
20
299.282
30
0
0
VERTEX
8
CONTOUR
6
0
10
2589.999
20
0.000
30
0
0
SEQEND
0
TEXT
8
CUT_STEPTEXT
10
2526.386000
20
45.106000
30
0
40
15.000000
50
171
1
5
72
0
73
3
11
2526.386000
21
45.106000
31
0
0
POLYLINE
6
1
8
CUT_STEP
62
1
10
0
20
0
30
0.000
66
1
0
VERTEX
8
CUT_STEP
6
1
10
2508.277
20
69.024
30
0
0
VERTEX
8
CUT_STEP
6
1
10
2520.350
20
53.079
30
0
0
VERTEX
8
CUT_STEP
6
1
10
2532.423
20
37.133
30
0
0
VERTEX
8
CUT_STEP
6
1
10
2563.107
20
60.366
30
0
0
VERTEX
8
CUT_STEP
6
1
10
2538.962
20
92.256
30
0
0
VERTEX
8
CUT_STEP
6
1
10
2508.277
20
69.024
30
0
0
SEQEND
0
TEXT
8
CUT_STEPTEXT
10
2407.855000
20
180.239000
30
0
40
15.000000
50
228
1
6
72
0
73
3
11
2407.855000
21
180.239000
31
0
0
POLYLINE
6
1
8
CUT_STEP
62
1
10
0
20
0
30
0.000
66
1
0
VERTEX
8
CUT_STEP
6
1
10
2284.880
20
87.129
30
0
0
VERTEX
8
CUT_STEP
6
1
10
2366.864
20
149.202
30
0
0
VERTEX
8
CUT_STEP
6
1
10
2448.847
20
211.276
30
0
0
VERTEX
8
CUT_STEP
6
1
10
2424.702
20
243.166
30
0
0
VERTEX
8
CUT_STEP
6
1
10
2260.735
20
119.020
30
0
0
VERTEX
8
CUT_STEP
6
1
10
2284.880
20
87.129
30
0
0
SEQEND
0
POLYLINE
6
1
8
CUT_RISER
62
1
10
0
20
0
30
0.000
66
1
0
VERTEX
8
CUT_RISER
6
1
10
2532.423
20
37.133
30
0
0
VERTEX
8
CUT_RISER
6
1
10
2473.783
20
114.581
30
0
0
VERTEX
8
CUT_RISER
6
1
10
2415.144
20
192.029
30
0
0
VERTEX
8
CUT_RISER
6
1
10
2402.351
20
182.343
30
0
0
VERTEX
8
CUT_RISER
6
1
10
2519.630
20
27.447
30
0
0
VERTEX
8
CUT_RISER
6
1
10
2532.423
20
37.133
30
0
0
SEQEND
0
TEXT
8
CUT_STEPTEXT
10
2150.406000
20
222.734000
30
0
40
15.000000
50
226
1
7
72
0
73
3
11
2150.406000
21
222.734000
31
0
0
POLYLINE
6
1
8
CUT_STEP
62
1
10
0
20
0
30
0.000
66
1
0
VERTEX
8
CUT_STEP
6
1
10
2011.638
20
117.667
30
0
0
VERTEX
8
CUT_STEP
6
1
10
2104.150
20
187.711
30
0
0
VERTEX
8
CUT_STEP
6
1
10
2196.661
20
257.756
30
0
0
VERTEX
8
CUT_STEP
6
1
10
2172.516
20
289.646
30
0
0
VERTEX
8
CUT_STEP
6
1
10
1987.493
20
149.557
30
0
0
VERTEX
8
CUT_STEP
6
1
10
2011.638
20
117.667
30
0
0
SEQEND
0
POLYLINE
6
1
8
CUT_RISER
62
1
10
0
20
0
30
0.000
66
1
0
VERTEX
8
CUT_RISER
6
1
10
2284.880
20
87.129
30
0
0
VERTEX
8
CUT_RISER
6
1
10
2226.241
20
164.577
30
0
0
VERTEX
8
CUT_RISER
6
1
10
2167.602
20
242.025
30
0
0
VERTEX
8
CUT_RISER
6
1
10
2155.445
20
232.820
30
0
0
VERTEX
8
CUT_RISER
6
1
10
2272.723
20
77.924
30
0
0
VERTEX
8
CUT_RISER
6
1
10
2284.880
20
87.129
30
0
0
SEQEND
0
TEXT
8
CUT_STEPTEXT
10
1871.726000
20
249.154000
30
0
40
15.000000
50
225
1
8
72
0
73
3
11
1871.726000
21
249.154000
31
0
0
POLYLINE
6
1
8
CUT_STEP
62
1
10
0
20
0
30
0.000
66
1
0
VERTEX
8
CUT_STEP
6
1
10
1718.054
20
132.803
30
0
0
VERTEX
8
CUT_STEP
6
1
10
1820.502
20
210.370
30
0
0
VERTEX
8
CUT_STEP
6
1
10
1922.950
20
287.938
30
0
0
VERTEX
8
CUT_STEP
6
1
10
1898.804
20
319.828
30
0
0
VERTEX
8
CUT_STEP
6
1
10
1693.909
20
164.693
30
0
0
VERTEX
8
CUT_STEP
6
1
10
1718.054
20
132.803
30
0
0
SEQEND
0
POLYLINE
6
1
8
CUT_RISER
62
1
10
0
20
0
30
0.000
66
1
0
VERTEX
8
CUT_RISER
6
1
10
2011.638
20
117.667
30
0
0
VERTEX
8
CUT_RISER
6
1
10
1952.999
20
195.115
30
0
0
VERTEX
8
CUT_RISER
6
1
10
1894.360
20
272.563
30
0
0
VERTEX
8
CUT_RISER
6
1
10
1882.379
20
263.492
30
0
0
VERTEX
8
CUT_RISER
6
1
10
1999.657
20
108.596
30
0
0
VERTEX
8
CUT_RISER
6
1
10
2011.638
20
117.667
30
0
0
SEQEND
0
TEXT
8
CUT_STEPTEXT
10
1573.100000
20
260.472000
30
0
40
15.000000
50
225
1
9
72
0
73
3
11
1573.100000
21
260.472000
31
0
0
POLYLINE
6
1
8
CUT_STEP
62
1
10
0
20
0
30
0.000
66
1
0
VERTEX
8
CUT_STEP
6
1
10
1404.480
20
132.803
30
0
0
VERTEX
8
CUT_STEP
6
1
10
1516.893
20
217.916
30
0
0
VERTEX
8
CUT_STEP
6
1
10
1629.307
20
303.029
30
0
0
VERTEX
8
CUT_STEP
6
1
10
1605.161
20
334.919
30
0
0
VERTEX
8
CUT_STEP
6
1
10
1380.334
20
164.693
30
0
0
VERTEX
8
CUT_STEP
6
1
10
1404.480
20
132.803
30
0
0
SEQEND
0
POLYLINE
6
1
8
CUT_RISER
62
1
10
0
20
0
30
0.000
66
1
0
VERTEX
8
CUT_RISER
6
1
10
1718.054
20
132.803
30
0
0
VERTEX
8
CUT_RISER
6
1
10
1659.415
20
210.251
30
0
0
VERTEX
8
CUT_RISER
6
1
10
1600.776
20
287.699
30
0
0
VERTEX
8
CUT_RISER
6
1
10
1588.817
20
278.644
30
0
0
VERTEX
8
CUT_RISER
6
1
10
1706.096
20
123.748
30
0
0
VERTEX
8
CUT_RISER
6
1
10
1718.054
20
132.803
30
0
0
SEQEND
0
TEXT
8
CUT_STEPTEXT
10
1259.525000
20
260.472000
30
0
40
15.000000
50
225
1
10
72
0
73
3
11
1259.525000
21
260.472000
31
0
0
POLYLINE
6
1
8
CUT_STEP
62
1
10
0
20
0
30
0.000
66
1
0
VERTEX
8
CUT_STEP
6
1
10
1090.905
20
132.803
30
0
0
VERTEX
8
CUT_STEP
6
1
10
1203.318
20
217.916
30
0
0
VERTEX
8
CUT_STEP
6
1
10
1315.732
20
303.029
30
0
0
VERTEX
8
CUT_STEP
6
1
10
1291.586
20
334.919
30
0
0
VERTEX
8
CUT_STEP
6
1
10
1066.760
20
164.693
30
0
0
VERTEX
8
CUT_STEP
6
1
10
1090.905
20
132.803
30
0
0
SEQEND
0
POLYLINE
6
1
8
CUT_RISER
62
1
10
0
20
0
30
0.000
66
1
0
VERTEX
8
CUT_RISER
6
1
10
1404.480
20
132.803
30
0
0
VERTEX
8
CUT_RISER
6
1
10
1345.841
20
210.251
30
0
0
VERTEX
8
CUT_RISER
6
1
10
1287.201
20
287.699
30
0
0
VERTEX
8
CUT_RISER
6
1
10
1275.243
20
278.644
30
0
0
VERTEX
8
CUT_RISER
6
1
10
1392.521
20
123.748
30
0
0
VERTEX
8
CUT_RISER
6
1
10
1404.480
20
132.803
30
0
0
SEQEND
0
TEXT
8
CUT_STEPTEXT
10
945.950000
20
260.472000
30
0
40
15.000000
50
225
1
11
72
0
73
3
11
945.950000
21
260.472000
31
0
0
POLYLINE
6
1
8
CUT_STEP
62
1
10
0
20
0
30
0.000
66
1
0
VERTEX
8
CUT_STEP
6
1
10
777.330
20
132.803
30
0
0
VERTEX
8
CUT_STEP
6
1
10
889.744
20
217.916
30
0
0
VERTEX
8
CUT_STEP
6
1
10
1002.157
20
303.029
30
0
0
VERTEX
8
CUT_STEP
6
1
10
978.012
20
334.919
30
0
0
VERTEX
8
CUT_STEP
6
1
10
753.185
20
164.693
30
0
0
VERTEX
8
CUT_STEP
6
1
10
777.330
20
132.803
30
0
0
SEQEND
0
POLYLINE
6
1
8
CUT_RISER
62
1
10
0
20
0
30
0.000
66
1
0
VERTEX
8
CUT_RISER
6
1
10
1090.905
20
132.803
30
0
0
VERTEX
8
CUT_RISER
6
1
10
1032.266
20
210.251
30
0
0
VERTEX
8
CUT_RISER
6
1
10
973.627
20
287.699
30
0
0
VERTEX
8
CUT_RISER
6
1
10
961.668
20
278.644
30
0
0
VERTEX
8
CUT_RISER
6
1
10
1078.946
20
123.748
30
0
0
VERTEX
8
CUT_RISER
6
1
10
1090.905
20
132.803
30
0
0
SEQEND
0
TEXT
8
CUT_STEPTEXT
10
632.376000
20
260.472000
30
0
40
15.000000
50
225
1
12
72
0
73
3
11
632.376000
21
260.472000
31
0
0
POLYLINE
6
1
8
CUT_STEP
62
1
10
0
20
0
30
0.000
66
1
0
VERTEX
8
CUT_STEP
6
1
10
463.756
20
132.803
30
0
0
VERTEX
8
CUT_STEP
6
1
10
576.169
20
217.916
30
0
0
VERTEX
8
CUT_STEP
6
1
10
688.582
20
303.029
30
0
0
VERTEX
8
CUT_STEP
6
1
10
664.437
20
334.919
30
0
0
VERTEX
8
CUT_STEP
6
1
10
439.610
20
164.693
30
0
0
VERTEX
8
CUT_STEP
6
1
10
463.756
20
132.803
30
0
0
SEQEND
0
POLYLINE
6
1
8
CUT_RISER
62
1
10
0
20
0
30
0.000
66
1
0
VERTEX
8
CUT_RISER
6
1
10
777.330
20
132.803
30
0
0
VERTEX
8
CUT_RISER
6
1
10
718.691
20
210.251
30
0
0
VERTEX
8
CUT_RISER
6
1
10
660.052
20
287.699
30
0
0
VERTEX
8
CUT_RISER
6
1
10
648.093
20
278.644
30
0
0
VERTEX
8
CUT_RISER
6
1
10
765.371
20
123.748
30
0
0
VERTEX
8
CUT_RISER
6
1
10
777.330
20
132.803
30
0
0
SEQEND
0
TEXT
8
CUT_STEPTEXT
10
320.794000
20
261.981000
30
0
40
15.000000
50
225
1
13
72
0
73
3
11
320.794000
21
261.981000
31
0
0
POLYLINE
6
1
8
CUT_STEP
62
1
10
0
20
0
30
0.000
66
1
0
VERTEX
8
CUT_STEP
6
1
10
158.153
20
138.839
30
0
0
VERTEX
8
CUT_STEP
6
1
10
266.581
20
220.934
30
0
0
VERTEX
8
CUT_STEP
6
1
10
375.008
20
303.029
30
0
0
VERTEX
8
CUT_STEP
6
1
10
350.862
20
334.919
30
0
0
VERTEX
8
CUT_STEP
6
1
10
134.008
20
170.730
30
0
0
VERTEX
8
CUT_STEP
6
1
10
158.153
20
138.839
30
0
0
SEQEND
0
POLYLINE
6
1
8
CUT_RISER
62
1
10
0
20
0
30
0.000
66
1
0
VERTEX
8
CUT_RISER
6
1
10
463.756
20
132.803
30
0
0
VERTEX
8
CUT_RISER
6
1
10
405.116
20
210.251
30
0
0
VERTEX
8
CUT_RISER
6
1
10
346.477
20
287.699
30
0
0
VERTEX
8
CUT_RISER
6
1
10
334.518
20
278.644
30
0
0
VERTEX
8
CUT_RISER
6
1
10
451.797
20
123.748
30
0
0
VERTEX
8
CUT_RISER
6
1
10
463.756
20
132.803
30
0
0
SEQEND
0
TEXT
8
CUT_STEPTEXT
10
37.857000
20
297.721000
30
0
40
15.000000
50
155
1
14
72
0
73
3
11
37.857000
21
297.721000
31
0
0
POLYLINE
6
1
8
CUT_STEP
62
1
10
0
20
0
30
0.000
66
1
0
VERTEX
8
CUT_STEP
6
1
10
19.748
20
321.639
30
0
0
VERTEX
8
CUT_STEP
6
1
10
31.821
20
305.694
30
0
0
VERTEX
8
CUT_STEP
6
1
10
43.893
20
289.749
30
0
0
VERTEX
8
CUT_STEP
6
1
10
61.433
20
303.029
30
0
0
VERTEX
8
CUT_STEP
6
1
10
37.287
20
334.919
30
0
0
VERTEX
8
CUT_STEP
6
1
10
19.748
20
321.639
30
0
0
SEQEND
0
POLYLINE
6
3
8
DRILLINGSSIDE
62
3
10
0
20
0
30
0.000
66
1
0
VERTEX
8
DRILLINGSSIDE
6
3
10
2214.027
20
337.117
30
0
0
VERTEX
8
DRILLINGSSIDE
6
3
10
2235.199
20
309.153
30
0
0
VERTEX
8
DRILLINGSSIDE
6
3
10
2219.254
20
297.081
30
0
0
VERTEX
8
DRILLINGSSIDE
6
3
10
2198.081
20
325.044
30
0
0
SEQEND
0
LINE
8
DRILLINGSSIDE
62
3
10
2206.054
20
331.081
30
0
11
2227.226
21
303.117
31
0
0
POLYLINE
6
3
8
DRILLINGSSIDE
62
3
10
0
20
0
30
0.000
66
1
0
VERTEX
8
DRILLINGSSIDE
6
3
10
2054.008
20
355.881
30
0
0
VERTEX
8
DRILLINGSSIDE
6
3
10
2074.314
20
329.061
30
0
0
VERTEX
8
DRILLINGSSIDE
6
3
10
2058.369
20
316.988
30
0
0
VERTEX
8
DRILLINGSSIDE
6
3
10
2038.062
20
343.808
30
0
0
SEQEND
0
LINE
8
DRILLINGSSIDE
62
3
10
2046.035
20
349.844
30
0
11
2066.341
21
323.025
31
0
0
POLYLINE
6
3
8
DRILLINGSSIDE
62
3
10
0
20
0
30
0.000
66
1
0
VERTEX
8
DRILLINGSSIDE
6
3
10
1898.737
20
368.372
30
0
0
VERTEX
8
DRILLINGSSIDE
6
3
10
1918.256
20
342.593
30
0
0
VERTEX
8
DRILLINGSSIDE
6
3
10
1902.311
20
330.520
30
0
0
VERTEX
8
DRILLINGSSIDE
6
3
10
1882.792
20
356.300
30
0
0
SEQEND
0
LINE
8
DRILLINGSSIDE
62
3
10
1890.765
20
362.336
30
0
11
1910.283
21
336.557
31
0
0
POLYLINE
6
3
8
DRILLINGSSIDE
62
3
10
0
20
0
30
0.000
66
1
0
VERTEX
8
DRILLINGSSIDE
6
3
10
1747.775
20
375.175
30
0
0
VERTEX
8
DRILLINGSSIDE
6
3
10
1766.581
20
350.337
30
0
0
VERTEX
8
DRILLINGSSIDE
6
3
10
1750.636
20
338.264
30
0
0
VERTEX
8
DRILLINGSSIDE
6
3
10
1731.830
20
363.102
30
0
0
SEQEND
0
LINE
8
DRILLINGSSIDE
62
3
10
1739.802
20
369.138
30
0
11
1758.608
21
344.300
31
0
0
POLYLINE
6
3
8
DRILLINGSSIDE
62
3
10
0
20
0
30
0.000
66
1
0
VERTEX
8
DRILLINGSSIDE
6
3
10
1600.716
20
376.821
30
0
0
VERTEX
8
DRILLINGSSIDE
6
3
10
1618.911
20
352.789
30
0
0
VERTEX
8
DRILLINGSSIDE
6
3
10
1602.966
20
340.717
30
0
0
VERTEX
8
DRILLINGSSIDE
6
3
10
1584.771
20
364.748
30
0
0
SEQEND
0
LINE
8
DRILLINGSSIDE
62
3
10
1592.744
20
370.785
30
0
11
1610.939
21
346.753
31
0
0
POLYLINE
6
3
8
DRILLINGSSIDE
62
3
10
0
20
0
30
0.000
66
1
0
VERTEX
8
DRILLINGSSIDE
6
3
10
1454.904
20
376.821
30
0
0
VERTEX
8
DRILLINGSSIDE
6
3
10
1473.099
20
352.789
30
0
0
VERTEX
8
DRILLINGSSIDE
6
3
10
1457.154
20
340.717
30
0
0
VERTEX
8
DRILLINGSSIDE
6
3
10
1438.959
20
364.748
30
0
0
SEQEND
0
LINE
8
DRILLINGSSIDE
62
3
10
1446.931
20
370.785
30
0
11
1465.127
21
346.753
31
0
0
POLYLINE
6
3
8
DRILLINGSSIDE
62
3
10
0
20
0
30
0.000
66
1
0
VERTEX
8
DRILLINGSSIDE
6
3
10
1309.092
20
376.821
30
0
0
VERTEX
8
DRILLINGSSIDE
6
3
10
1327.287
20
352.789
30
0
0
VERTEX
8
DRILLINGSSIDE
6
3
10
1311.342
20
340.717
30
0
0
VERTEX
8
DRILLINGSSIDE
6
3
10
1293.146
20
364.748
30
0
0
SEQEND
0
LINE
8
DRILLINGSSIDE
62
3
10
1301.119
20
370.785
30
0
11
1319.314
21
346.753
31
0
0
POLYLINE
6
3
8
DRILLINGSSIDE
62
3
10
0
20
0
30
0.000
66
1
0
VERTEX
8
DRILLINGSSIDE
6
3
10
1163.279
20
376.821
30
0
0
VERTEX
8
DRILLINGSSIDE
6
3
10
1181.475
20
352.789
30
0
0
VERTEX
8
DRILLINGSSIDE
6
3
10
1165.530
20
340.717
30
0
0
VERTEX
8
DRILLINGSSIDE
6
3
10
1147.334
20
364.748
30
0
0
SEQEND
0
LINE
8
DRILLINGSSIDE
62
3
10
1155.307
20
370.785
30
0
11
1173.502
21
346.753
31
0
0
POLYLINE
6
3
8
DRILLINGSSIDE
62
3
10
0
20
0
30
0.000
66
1
0
VERTEX
8
DRILLINGSSIDE
6
3
10
1017.467
20
376.821
30
0
0
VERTEX
8
DRILLINGSSIDE
6
3
10
1035.663
20
352.789
30
0
0
VERTEX
8
DRILLINGSSIDE
6
3
10
1019.717
20
340.717
30
0
0
VERTEX
8
DRILLINGSSIDE
6
3
10
1001.522
20
364.748
30
0
0
SEQEND
0
LINE
8
DRILLINGSSIDE
62
3
10
1009.495
20
370.785
30
0
11
1027.690
21
346.753
31
0
0
POLYLINE
6
3
8
DRILLINGSSIDE
62
3
10
0
20
0
30
0.000
66
1
0
VERTEX
8
DRILLINGSSIDE
6
3
10
871.655
20
376.821
30
0
0
VERTEX
8
DRILLINGSSIDE
6
3
10
889.850
20
352.789
30
0
0
VERTEX
8
DRILLINGSSIDE
6
3
10
873.905
20
340.717
30
0
0
VERTEX
8
DRILLINGSSIDE
6
3
10
855.710
20
364.748
30
0
0
SEQEND
0
LINE
8
DRILLINGSSIDE
62
3
10
863.682
20
370.785
30
0
11
881.878
21
346.753
31
0
0
POLYLINE
6
3
8
DRILLINGSSIDE
62
3
10
0
20
0
30
0.000
66
1
0
VERTEX
8
DRILLINGSSIDE
6
3
10
725.843
20
376.821
30
0
0
VERTEX
8
DRILLINGSSIDE
6
3
10
744.038
20
352.789
30
0
0
VERTEX
8
DRILLINGSSIDE
6
3
10
728.093
20
340.717
30
0
0
VERTEX
8
DRILLINGSSIDE
6
3
10
709.898
20
364.748
30
0
0
SEQEND
0
LINE
8
DRILLINGSSIDE
62
3
10
717.870
20
370.785
30
0
11
736.066
21
346.753
31
0
0
POLYLINE
6
3
8
DRILLINGSSIDE
62
3
10
0
20
0
30
0.000
66
1
0
VERTEX
8
DRILLINGSSIDE
6
3
10
580.031
20
376.821
30
0
0
VERTEX
8
DRILLINGSSIDE
6
3
10
598.226
20
352.789
30
0
0
VERTEX
8
DRILLINGSSIDE
6
3
10
582.281
20
340.717
30
0
0
VERTEX
8
DRILLINGSSIDE
6
3
10
564.085
20
364.748
30
0
0
SEQEND
0
LINE
8
DRILLINGSSIDE
62
3
10
572.058
20
370.785
30
0
11
590.253
21
346.753
31
0
0
POLYLINE
6
3
8
DRILLINGSSIDE
62
3
10
0
20
0
30
0.000
66
1
0
VERTEX
8
DRILLINGSSIDE
6
3
10
434.218
20
376.821
30
0
0
VERTEX
8
DRILLINGSSIDE
6
3
10
452.414
20
352.789
30
0
0
VERTEX
8
DRILLINGSSIDE
6
3
10
436.469
20
340.717
30
0
0
VERTEX
8
DRILLINGSSIDE
6
3
10
418.273
20
364.748
30
0
0
SEQEND
0
LINE
8
DRILLINGSSIDE
62
3
10
426.246
20
370.785
30
0
11
444.441
21
346.753
31
0
0
POLYLINE
6
3
8
DRILLINGSSIDE
62
3
10
0
20
0
30
0.000
66
1
0
VERTEX
8
DRILLINGSSIDE
6
3
10
288.406
20
376.821
30
0
0
VERTEX
8
DRILLINGSSIDE
6
3
10
306.602
20
352.789
30
0
0
VERTEX
8
DRILLINGSSIDE
6
3
10
290.656
20
340.717
30
0
0
VERTEX
8
DRILLINGSSIDE
6
3
10
272.461
20
364.748
30
0
0
SEQEND
0
LINE
8
DRILLINGSSIDE
62
3
10
280.434
20
370.785
30
0
11
298.629
21
346.753
31
0
0
POLYLINE
6
3
8
DRILLINGSSIDE
62
3
10
0
20
0
30
0.000
66
1
0
VERTEX
8
DRILLINGSSIDE
6
3
10
142.594
20
376.821
30
0
0
VERTEX
8
DRILLINGSSIDE
6
3
10
160.789
20
352.789
30
0
0
VERTEX
8
DRILLINGSSIDE
6
3
10
144.844
20
340.717
30
0
0
VERTEX
8
DRILLINGSSIDE
6
3
10
126.649
20
364.748
30
0
0
SEQEND
0
LINE
8
DRILLINGSSIDE
62
3
10
134.621
20
370.785
30
0
11
152.817
21
346.753
31
0
0
POLYLINE
6
3
8
DRILLINGSSIDE
62
3
10
0
20
0
30
0.000
66
1
0
VERTEX
8
DRILLINGSSIDE
6
3
10
167.381
20
126.652
30
0
0
VERTEX
8
DRILLINGSSIDE
6
3
10
219.202
20
165.889
30
0
0
VERTEX
8
DRILLINGSSIDE
6
3
10
225.239
20
157.916
30
0
0
VERTEX
8
DRILLINGSSIDE
6
3
10
173.417
20
118.680
30
0
0
SEQEND
0
LINE
8
DRILLINGSSIDE
62
3
10
170.399
20
122.666
30
0
11
222.221
21
161.903
31
0
0
POLYLINE
6
3
8
DRILLINGSSIDE
62
3
10
0
20
0
30
0.000
66
1
0
VERTEX
8
DRILLINGSSIDE
6
3
10
109.345
20
203.303
30
0
0
VERTEX
8
DRILLINGSSIDE
6
3
10
161.167
20
242.540
30
0
0
VERTEX
8
DRILLINGSSIDE
6
3
10
167.203
20
234.567
30
0
0
VERTEX
8
DRILLINGSSIDE
6
3
10
115.381
20
195.331
30
0
0
SEQEND
0
LINE
8
DRILLINGSSIDE
62
3
10
112.363
20
199.317
30
0
11
164.185
21
238.553
31
0
0
POLYLINE
6
3
8
DRILLINGSSIDE
62
3
10
0
20
0
30
0.000
66
1
0
VERTEX
8
DRILLINGSSIDE
6
3
10
51.309
20
279.954
30
0
0
VERTEX
8
DRILLINGSSIDE
6
3
10
103.131
20
319.191
30
0
0
VERTEX
8
DRILLINGSSIDE
6
3
10
109.167
20
311.218
30
0
0
VERTEX
8
DRILLINGSSIDE
6
3
10
57.346
20
271.982
30
0
0
SEQEND
0
LINE
8
DRILLINGSSIDE
62
3
10
54.327
20
275.968
30
0
11
106.149
21
315.204
31
0
0
LINE
8
EXTRASTRINGTENONLINES
62
2
10
247.939
20
45.104
30
0
11
-54.441
21
444.474
31
0
0
LINE
8
DIMLINES
62
0
10
-20.000
20
464.748
30
0
11
2534.129
21
464.748
31
0
0
LINE
8
DIMLINES
62
0
10
0.000
20
484.748
30
0
11
0.000
21
424.748
31
0
0
LINE
8
DIMLINES
62
0
10
3.281
20
484.748
30
0
11
3.281
21
424.748
31
0
0
LINE
8
DIMLINES
62
0
10
1966.923
20
484.748
30
0
11
1966.923
21
424.748
31
0
0
LINE
8
DIMLINES
62
0
10
2514.129
20
484.748
30
0
11
2514.129
21
424.748
31
0
0
LINE
8
DIMLINES
62
0
10
7.071
20
471.819
30
0
11
-7.071
21
457.677
31
0
0
LINE
8
DIMLINES
62
0
10
10.352
20
471.819
30
0
11
-3.790
21
457.677
31
0
0
LINE
8
DIMLINES
62
0
10
1973.994
20
471.819
30
0
11
1959.852
21
457.677
31
0
0
LINE
8
DIMLINES
62
0
10
2521.200
20
471.819
30
0
11
2507.058
21
457.677
31
0
0
TEXT
8
DIMLINESTEXT
10
-35.749000
20
509.748000
30
0
40
22.500000
50
0
1
3
72
0
73
3
11
-35.749000
21
509.748000
31
0
0
TEXT
8
DIMLINESTEXT
10
940.605000
20
509.748000
30
0
40
22.500000
50
0
1
1964
72
0
73
3
11
940.605000
21
509.748000
31
0
0
TEXT
8
DIMLINESTEXT
10
2207.153000
20
509.748000
30
0
40
22.500000
50
0
1
547
72
0
73
3
11
2207.153000
21
509.748000
31
0
0
LINE
8
DIMLINES
62
0
10
2614.129
20
330.206
30
0
11
2614.129
21
384.748
31
0
0
LINE
8
DIMLINES
62
0
10
2634.129
20
350.206
30
0
11
2574.129
21
350.206
31
0
0
LINE
8
DIMLINES
62
0
10
2634.129
20
364.748
30
0
11
2574.129
21
364.748
31
0
0
LINE
8
DIMLINES
62
0
10
2607.058
20
357.277
30
0
11
2621.200
21
343.135
31
0
0
LINE
8
DIMLINES
62
0
10
2607.058
20
371.819
30
0
11
2621.200
21
357.677
31
0
0
TEXT
8
DIMLINESTEXT
10
2569.129000
20
292.208000
30
0
40
22.500000
50
90
1
15
72
0
73
3
11
2569.129000
21
292.208000
31
0
0
LINE
8
DIMLINES
62
0
10
1931.116
20
-100.000
30
0
11
2609.999
21
-100.000
31
0
0
LINE
8
DIMLINES
62
0
10
1951.116
20
-120.000
30
0
11
1951.116
21
-60.000
31
0
0
LINE
8
DIMLINES
62
0
10
2589.999
20
-120.000
30
0
11
2589.999
21
-60.000
31
0
0
LINE
8
DIMLINES
62
0
10
1958.187
20
-92.929
30
0
11
1944.045
21
-107.071
31
0
0
LINE
8
DIMLINES
62
0
10
2597.070
20
-92.929
30
0
11
2582.928
21
-107.071
31
0
0
TEXT
8
DIMLINESTEXT
10
2237.184000
20
-55.000000
30
0
40
22.500000
50
0
1
639
72
0
73
3
11
2237.184000
21
-55.000000
31
0
0
LINE
8
DIMLINES
62
0
10
-20.000
20
-200.000
30
0
11
2609.999
21
-200.000
31
0
0
LINE
8
DIMLINES
62
0
10
0.000
20
-220.000
30
0
11
0.000
21
-160.000
31
0
0
LINE
8
DIMLINES
62
0
10
1951.116
20
-220.000
30
0
11
1951.116
21
-160.000
31
0
0
LINE
8
DIMLINES
62
0
10
2514.129
20
-220.000
30
0
11
2514.129
21
-160.000
31
0
0
LINE
8
DIMLINES
62
0
10
2589.999
20
-220.000
30
0
11
2589.999
21
-160.000
31
0
0
LINE
8
DIMLINES
62
0
10
7.071
20
-192.929
30
0
11
-7.071
21
-207.071
31
0
0
LINE
8
DIMLINES
62
0
10
1958.187
20
-192.929
30
0
11
1944.045
21
-207.071
31
0
0
LINE
8
DIMLINES
62
0
10
2521.200
20
-192.929
30
0
11
2507.058
21
-207.071
31
0
0
LINE
8
DIMLINES
62
0
10
2597.070
20
-192.929
30
0
11
2582.928
21
-207.071
31
0
0
TEXT
8
DIMLINESTEXT
10
931.060000
20
-155.000000
30
0
40
22.500000
50
0
1
1951
72
0
73
3
11
931.060000
21
-155.000000
31
0
0
TEXT
8
DIMLINESTEXT
10
2199.249000
20
-155.000000
30
0
40
22.500000
50
0
1
563
72
0
73
3
11
2199.249000
21
-155.000000
31
0
0
TEXT
8
DIMLINESTEXT
10
2529.815000
20
-155.000000
30
0
40
22.500000
50
0
1
76
72
0
73
3
11
2529.815000
21
-155.000000
31
0
0
LINE
8
DIMLINES
62
0
10
2689.999
20
-20.000
30
0
11
2689.999
21
120.206
31
0
0
LINE
8
DIMLINES
62
0
10
2709.999
20
0.000
30
0
11
2649.999
21
0.000
31
0
0
LINE
8
DIMLINES
62
0
10
2709.999
20
100.206
30
0
11
2649.999
21
100.206
31
0
0
LINE
8
DIMLINES
62
0
10
2682.928
20
7.071
30
0
11
2697.070
21
-7.071
31
0
0
LINE
8
DIMLINES
62
0
10
2682.928
20
107.277
30
0
11
2697.070
21
93.135
31
0
0
TEXT
8
DIMLINESTEXT
10
2644.999000
20
16.730000
30
0
40
22.500000
50
90
1
100
72
0
73
3
11
2644.999000
21
16.730000
31
0
0
LINE
8
DIMLINES
62
0
10
-20.000
20
-300.000
30
0
11
2609.999
21
-300.000
31
0
0
LINE
8
DIMLINES
62
0
10
0.000
20
-320.000
30
0
11
0.000
21
-260.000
31
0
0
LINE
8
DIMLINES
62
0
10
2589.999
20
-320.000
30
0
11
2589.999
21
-260.000
31
0
0
LINE
8
DIMLINES
62
0
10
7.071
20
-292.929
30
0
11
-7.071
21
-307.071
31
0
0
LINE
8
DIMLINES
62
0
10
2597.070
20
-292.929
30
0
11
2582.928
21
-307.071
31
0
0
TEXT
8
DIMLINESTEXT
10
1250.502000
20
-255.000000
30
0
40
22.500000
50
0
1
2590
72
0
73
3
11
1250.502000
21
-255.000000
31
0
0
TEXT
8
DIMLINESTEXT
10
2505.881000
20
67.210000
30
0
40
22.500000
50
37
1
38
72
0
73
3
11
2505.881000
21
67.210000
31
0
0
TEXT
8
DIMLINESTEXT
10
2288.947000
20
196.824000
30
0
40
22.500000
50
37
1
206
72
0
73
3
11
2288.947000
21
196.824000
31
0
0
TEXT
8
DIMLINESTEXT
10
2026.234000
20
235.333000
30
0
40
22.500000
50
37
1
232
72
0
73
3
11
2026.234000
21
235.333000
31
0
0
TEXT
8
DIMLINESTEXT
10
1742.586000
20
257.992000
30
0
40
22.500000
50
37
1
257
72
0
73
3
11
1742.586000
21
257.992000
31
0
0
TEXT
8
DIMLINESTEXT
10
1438.977000
20
265.538000
30
0
40
22.500000
50
37
1
282
72
0
73
3
11
1438.977000
21
265.538000
31
0
0
TEXT
8
DIMLINESTEXT
10
1125.402000
20
265.538000
30
0
40
22.500000
50
37
1
282
72
0
73
3
11
1125.402000
21
265.538000
31
0
0
TEXT
8
DIMLINESTEXT
10
811.827000
20
265.538000
30
0
40
22.500000
50
37
1
282
72
0
73
3
11
811.827000
21
265.538000
31
0
0
TEXT
8
DIMLINESTEXT
10
498.253000
20
265.538000
30
0
40
22.500000
50
37
1
282
72
0
73
3
11
498.253000
21
265.538000
31
0
0
TEXT
8
DIMLINESTEXT
10
188.664000
20
268.556000
30
0
40
22.500000
50
37
1
272
72
0
73
3
11
188.664000
21
268.556000
31
0
0
TEXT
8
DIMLINESTEXT
10
10.780000
20
314.849000
30
0
40
22.500000
50
37
1
22
72
0
73
3
11
10.780000
21
314.849000
31
0
0
LINE
8
DIMLINES
62
0
10
-100.000
20
80.206
30
0
11
-100.000
21
370.206
31
0
0
LINE
8
DIMLINES
62
0
10
-120.000
20
100.206
30
0
11
-60.000
21
100.206
31
0
0
LINE
8
DIMLINES
62
0
10
-120.000
20
350.206
30
0
11
-60.000
21
350.206
31
0
0
LINE
8
DIMLINES
62
0
10
-107.071
20
107.277
30
0
11
-92.929
21
93.135
31
0
0
LINE
8
DIMLINES
62
0
10
-107.071
20
357.277
30
0
11
-92.929
21
343.135
31
0
0
TEXT
8
DIMLINESTEXT
10
-145.000000
20
191.832000
30
0
40
22.500000
50
90
1
250
72
0
73
3
11
-145.000000
21
191.832000
31
0
0
LINE
8
DIMLINES
62
0
10
-20.000
20
564.748
30
0
11
2534.129
21
564.748
31
0
0
LINE
8
DIMLINES
62
0
10
0.000
20
584.748
30
0
11
0.000
21
524.748
31
0
0
LINE
8
DIMLINES
62
0
10
2514.129
20
584.748
30
0
11
2514.129
21
524.748
31
0
0
LINE
8
DIMLINES
62
0
10
7.071
20
571.819
30
0
11
-7.071
21
557.677
31
0
0
LINE
8
DIMLINES
62
0
10
2521.200
20
571.819
30
0
11
2507.058
21
557.677
31
0
0
TEXT
8
DIMLINESTEXT
10
1212.567000
20
609.748000
30
0
40
22.500000
50
0
1
2514
72
0
73
3
11
1212.567000
21
609.748000
31
0
0
ENDSEC
0
EOF
