0
SECTION
2
HEADER
9
$ACADVER
1
AC1006
9
$INSBASE
10
0.0
20
0.0
30
0.0
9
$INSUNITS
70
4
9
$EXTMIN
10
-1149.877
20
-20.000
9
$EXTMAX
10
120.000
20
785.000
0
ENDSEC
0
SECTION
2
TABLES
0
TABLE
2
LTYPE
70
1
0
LTYPE
2
CONTINUOUS
70
64
3
Solid line
72
65
73
0
40
0.000000
0
ENDTAB
0
TABLE
2
LAYER
70
9
0
LAYER
2
CONTOUR
70
64
62
7
6
CONTINUOUS
0
LAYER
2
CUT_RISER
70
64
62
7
6
CONTINUOUS
0
LAYER
2
CUT_SPLIT
70
64
62
7
6
CONTINUOUS
0
LAYER
2
EXTRATREADFRONTPROFILELINES
70
64
62
7
6
CONTINUOUS
0
LAYER
2
EXTRATREADBACKPROFILELINES
70
64
62
7
6
CONTINUOUS
0
LAYER
2
EXTRATREADBACKPROFILELINESTEXT
70
64
62
7
6
CONTINUOUS
0
LAYER
2
DIMLINES
70
64
62
7
6
CONTINUOUS
0
LAYER
2
DIMLINESTEXT
70
64
62
7
6
CONTINUOUS
0
ENDTAB
0
TABLE
2
STYLE
70
0
0
ENDTAB
0
ENDSEC
0
SECTION
2
BLOCKS
0
ENDSEC
0
SECTION
2
ENTITIES
0
POLYLINE
6
0
8
CONTOUR
62
0
10
0
20
0
30
0.000
66
1
0
VERTEX
8
CONTOUR
6
0
10
-14.873
20
367.666
30
0
0
VERTEX
8
CONTOUR
6
0
10
0.000
20
365.715
30
0
0
VERTEX
8
CONTOUR
6
0
10
-47.184
20
5.981
30
0
0
VERTEX
8
CONTOUR
6
0
10
-62.056
20
7.932
30
0
0
VERTEX
8
CONTOUR
6
0
10
-63.097
20
0.000
30
0
0
VERTEX
8
CONTOUR
6
0
10
-890.120
20
0.000
30
0
0
VERTEX
8
CONTOUR
6
0
10
-889.080
20
7.932
30
0
0
VERTEX
8
CONTOUR
6
0
10
-903.952
20
9.883
30
0
0
VERTEX
8
CONTOUR
6
0
10
-877.889
20
208.593
30
0
0
VERTEX
8
CONTOUR
6
0
10
-862.386
20
211.451
30
0
0
VERTEX
8
CONTOUR
6
0
10
-14.873
20
367.666
30
0
0
SEQEND
0
POLYLINE
6
1
8
CUT_RISER
62
1
10
0
20
0
30
0.000
66
1
0
VERTEX
8
CUT_RISER
6
1
10
-42.722
20
40.000
30
0
0
VERTEX
8
CUT_RISER
6
1
10
-471.362
20
40.000
30
0
0
VERTEX
8
CUT_RISER
6
1
10
-900.002
20
40.000
30
0
0
VERTEX
8
CUT_RISER
6
1
10
-898.035
20
55.000
30
0
0
VERTEX
8
CUT_RISER
6
1
10
-40.754
20
55.000
30
0
0
VERTEX
8
CUT_RISER
6
1
10
-42.722
20
40.000
30
0
0
SEQEND
0
LINE
8
CUT_SPLIT
62
1
10
0.000
20
388.023
30
0
11
-904.877
21
249.509
31
0
0
LINE
8
EXTRATREADFRONTPROFILELINES
62
2
10
36.903
20
0.000
30
0
11
-990.120
21
0.000
31
0
0
LINE
8
EXTRATREADBACKPROFILELINES
62
2
10
-960.729
20
193.324
30
0
11
83.471
21
385.793
31
0
0
LINE
8
EXTRATREADBACKPROFILELINES
62
2
10
-34.703
20
370.267
30
0
11
19.830
21
363.114
31
0
0
TEXT
8
EXTRATREADBACKPROFILELINESTEXT
10
-438.629000
20
289.558000
30
0
40
15.000000
50
370
1
Tr2
72
0
73
3
11
-438.629000
21
289.558000
31
0
0
POLYLINE
6
0
8
CONTOUR
62
0
10
0
20
0
30
0.000
66
1
0
VERTEX
8
CONTOUR
6
0
10
-830.368
20
305.476
30
0
0
VERTEX
8
CONTOUR
6
0
10
-845.287
20
303.677
30
0
0
VERTEX
8
CONTOUR
6
0
10
-904.877
20
629.431
30
0
0
VERTEX
8
CONTOUR
6
0
10
-890.122
20
632.131
30
0
0
VERTEX
8
CONTOUR
6
0
10
-891.561
20
640.000
30
0
0
VERTEX
8
CONTOUR
6
0
10
-57.955
20
640.000
30
0
0
VERTEX
8
CONTOUR
6
0
10
-56.515
20
632.131
30
0
0
VERTEX
8
CONTOUR
6
0
10
-41.760
20
634.830
30
0
0
VERTEX
8
CONTOUR
6
0
10
0.000
20
406.544
30
0
0
VERTEX
8
CONTOUR
6
0
10
-14.755
20
403.844
30
0
0
VERTEX
8
CONTOUR
6
0
10
-830.368
20
305.476
30
0
0
SEQEND
0
POLYLINE
6
1
8
CUT_RISER
62
1
10
0
20
0
30
0.000
66
1
0
VERTEX
8
CUT_RISER
6
1
10
-899.493
20
600.000
30
0
0
VERTEX
8
CUT_RISER
6
1
10
-467.441
20
600.000
30
0
0
VERTEX
8
CUT_RISER
6
1
10
-35.389
20
600.000
30
0
0
VERTEX
8
CUT_RISER
6
1
10
-32.645
20
585.000
30
0
0
VERTEX
8
CUT_RISER
6
1
10
-896.749
20
585.000
30
0
0
VERTEX
8
CUT_RISER
6
1
10
-899.493
20
600.000
30
0
0
SEQEND
0
LINE
8
EXTRATREADFRONTPROFILELINES
62
2
10
-991.561
20
640.000
30
0
11
42.045
21
640.000
31
0
0
LINE
8
EXTRATREADBACKPROFILELINES
62
2
10
84.525
20
415.818
30
0
11
-929.648
21
293.503
31
0
0
LINE
8
EXTRATREADBACKPROFILELINES
62
2
10
19.674
20
410.142
30
0
11
-34.429
21
400.246
31
0
0
TEXT
8
EXTRATREADBACKPROFILELINESTEXT
10
-422.561000
20
354.660000
30
0
40
15.000000
50
186
1
Tr7
72
0
73
3
11
-422.561000
21
354.660000
31
0
0
LINE
8
DIMLINES
62
0
10
-1004.877
20
-20.000
30
0
11
-1004.877
21
660.000
31
0
0
LINE
8
DIMLINES
62
0
10
-1024.877
20
0.000
30
0
11
-964.877
21
0.000
31
0
0
LINE
8
DIMLINES
62
0
10
-1024.877
20
249.509
30
0
11
-964.877
21
249.509
31
0
0
LINE
8
DIMLINES
62
0
10
-1024.877
20
640.000
30
0
11
-964.877
21
640.000
31
0
0
LINE
8
DIMLINES
62
0
10
-1011.948
20
7.071
30
0
11
-997.806
21
-7.071
31
0
0
LINE
8
DIMLINES
62
0
10
-1011.948
20
256.580
30
0
11
-997.806
21
242.438
31
0
0
LINE
8
DIMLINES
62
0
10
-1011.948
20
647.071
30
0
11
-997.806
21
632.929
31
0
0
TEXT
8
DIMLINESTEXT
10
-1049.877000
20
91.381000
30
0
40
22.500000
50
90
1
250
72
0
73
3
11
-1049.877000
21
91.381000
31
0
0
TEXT
8
DIMLINESTEXT
10
-1049.877000
20
411.381000
30
0
40
22.500000
50
90
1
390
72
0
73
3
11
-1049.877000
21
411.381000
31
0
0
LINE
8
DIMLINES
62
0
10
100.000
20
-20.000
30
0
11
100.000
21
660.000
31
0
0
LINE
8
DIMLINES
62
0
10
120.000
20
0.000
30
0
11
60.000
21
0.000
31
0
0
LINE
8
DIMLINES
62
0
10
120.000
20
388.023
30
0
11
60.000
21
388.023
31
0
0
LINE
8
DIMLINES
62
0
10
120.000
20
640.000
30
0
11
60.000
21
640.000
31
0
0
LINE
8
DIMLINES
62
0
10
92.929
20
7.071
30
0
11
107.071
21
-7.071
31
0
0
LINE
8
DIMLINES
62
0
10
92.929
20
395.094
30
0
11
107.071
21
380.952
31
0
0
LINE
8
DIMLINES
62
0
10
92.929
20
647.071
30
0
11
107.071
21
632.929
31
0
0
TEXT
8
DIMLINESTEXT
10
55.000000
20
160.638000
30
0
40
22.500000
50
90
1
388
72
0
73
3
11
55.000000
21
160.638000
31
0
0
TEXT
8
DIMLINESTEXT
10
55.000000
20
480.638000
30
0
40
22.500000
50
90
1
252
72
0
73
3
11
55.000000
21
480.638000
31
0
0
LINE
8
DIMLINES
62
0
10
-1104.877
20
-20.000
30
0
11
-1104.877
21
660.000
31
0
0
LINE
8
DIMLINES
62
0
10
-1124.877
20
0.000
30
0
11
-1064.877
21
0.000
31
0
0
LINE
8
DIMLINES
62
0
10
-1124.877
20
640.000
30
0
11
-1064.877
21
640.000
31
0
0
LINE
8
DIMLINES
62
0
10
-1111.948
20
7.071
30
0
11
-1097.806
21
-7.071
31
0
0
LINE
8
DIMLINES
62
0
10
-1111.948
20
647.071
30
0
11
-1097.806
21
632.929
31
0
0
TEXT
8
DIMLINESTEXT
10
-1149.877000
20
286.627000
30
0
40
22.500000
50
90
1
640
72
0
73
3
11
-1149.877000
21
286.627000
31
0
0
LINE
8
DIMLINES
62
0
10
-924.877
20
740.000
30
0
11
20.000
21
740.000
31
0
0
LINE
8
DIMLINES
62
0
10
-904.877
20
760.000
30
0
11
-904.877
21
700.000
31
0
0
LINE
8
DIMLINES
62
0
10
0.000
20
760.000
30
0
11
0.000
21
700.000
31
0
0
LINE
8
DIMLINES
62
0
10
-897.806
20
747.071
30
0
11
-911.948
21
732.929
31
0
0
LINE
8
DIMLINES
62
0
10
7.071
20
747.071
30
0
11
-7.071
21
732.929
31
0
0
TEXT
8
DIMLINESTEXT
10
-485.812000
20
785.000000
30
0
40
22.500000
50
0
1
905
72
0
73
3
11
-485.812000
21
785.000000
31
0
0
ENDSEC
0
EOF
